+
- » MUSIC » TAB♪ » Sparklehorse ♪ TAB

Sparklehorse

闪马
(04'59'')



INTRODUCTION


1 = C (root note)
120 bpm (bit per minute)
4/4
--------------------------------------------
♩= (1/4bar note) = 1bit
♪ = 1/2♩(1/8bar note) = 1/2bit
♫ = 2 x 1/2♩=1bit
-/↓/↑ = 1/2♩(1/8bar note) = 1/2bit
♬ = 2 x 1/2 ♪ (1/16bar note) = 1/2bit
| = bar line  
Number = Guitar Pad Position = ♪
(when without appendix mark 
default value = 1/2bit) 
-------------------------------------------
            #code#
4/4 key=G
Guitar Chord
 Verse :G Em
桥:D Em
E-----------------------0--------------------------------------0-------
B------0--3----3-0---0------------------------0----------0----0----------------------
A---2------------------0-----(x4)-------0-2--------0^2-----------------------------
D--------------------------------------2------------------------------2--------------
A----------------------------------------------------------------------------------
E---------------------------------------------------------------- 
#striptags#
4/4 key=G
Guitar Chord
 Verse :G Em
桥:D Em
E-----------------------0--------------------------------------0-------
B------0--3----3-0---0------------------------0----------0----0----------------------
A---2------------------0-----(x4)-------0-2--------0^2-----------------------------
D--------------------------------------2------------------------------2--------------
A----------------------------------------------------------------------------------
E---------------------------------------------------------------- 
#/striptags##/code#


0 s
0 s
+ (0.061316967010498s)
◕‿◕
Ph㊣ne