+
- » MUSIC » TAB♪ » Honeyed And Killed ♪ TAB

Honeyed And Killed

蜜杀
(04'30'')



INTRODUCTION


1 = C (root note)
120 bpm (bit per minute)
4/4
--------------------------------------------
♩= (1/4bar note) = 1bit
♪ = 1/2♩(1/8bar note) = 1/2bit
♫ = 2 x 1/2♩=1bit
-/↓/↑ = 1/2♩(1/8bar note) = 1/2bit
♬ = 2 x 1/2 ♪ (1/16bar note) = 1/2bit
| = bar line  
Number = Guitar Pad Position = ♪
(when without appendix mark 
default value = 1/2bit) 
-------------------------------------------
            
4/4 key=D
Guitar Chord
 Verse  Chorus :D A
 Intro 
E-----------------------0----------------------------------------
B------------10-----------10--------------------------------0--------
A-------11-------11-------------(x2)----------10---------------10-----(x2)--
D-------0---------------------------------12---------12--------------
A------------------------------------------0-------------------
E----------------------------------------------------------------

SOLO
E---------------------------------------------------------------
B------------9--11--14--11-11-11-9-9-11--14-14-------------------------
A-------11--------------------------------------------------9-11/14-11----------------------------
D-------0---------------------------------------------------------------0---------------------
A-------------------------------------------------------------
E---------------------------------------------------------------- 


0 s
0 s
+ (0.072150945663452s)
◕‿◕
Ph㊣ne